21 maio, 2006

Células Rítmicas de Bossa Nova!

Esta é uma matéria retirada do Método de Violão - Técnicas - de Ricardo Giuffrida da Coleção Toque de Mestre - Ed.01, é sobre Rítmos Brasileiros e aqui estou repassando as células rítmicas da Bossa Nova. No livro são os exercícios de nº 16, 17 e 18. É importante para qualquer guitarrista ou violonista estudar as células rítmicas brasileiras, para melhorar a qualidade do acompanhamento. O trabalho aqui não é para sua mão da escala (Acordes), este é um trabalho para sua mão do rítmo, embora a Bossa Nova seja um gênero de sofisticação harmônica, melódica e porque não dizer, rítmica. Mas o trabalho agora é rítmo. Vamos às células rítmicas:


Dúvidas e comentários podem ser feitos na nossa comunidade: Participe da nossa Comunidade: Pinheiro - Aulas de Violão:
http://www.orkut.com/community.aspx?cmm=10967156

Cmaj7

---0-0---0-0----0-0---0-0--
---0-0---0-0----0-0---0-0--
---0-0---0-0----0-0---0-0--
------------------------------
-3------3------3------3------
------------------------------

Cmaj7

---0-0---0------0-0---0----
---0-0---0------0-0---0----
---0-0---0------0-0---0----
-----------------------------
---3---3------3------3------
--------------------------- -

Cmaj7

---0-0---0------0-0---0----
---0-0---0------0-0---0----
---0-0---0------0-0---0----
------------------------------
---3---3---3---3-----3---3--
------------------------------
Postar um comentário